ISO-10303-21;
HEADER;
FILE_DESCRIPTION (( 'STEP AP203' ),
    '1' );
FILE_NAME ('Q-OZHWP-R2-10-532-M.STEP',
    '2020-12-22T09:12:01',
    ( '' ),
    ( '' ),
    'SwSTEP 2.0',
    'SolidWorks 2020',
    '' );
FILE_SCHEMA (( 'CONFIG_CONTROL_DESIGN' ));
ENDSEC;

DATA;
#1 = CARTESIAN_POINT ( 'NONE',  ( -1.614212418857619014, 6.123233995736767268E-16, -5.000000000000000888 ) ) ;
#2 = LINE ( 'NONE', #315, #243 ) ;
#3 = DIRECTION ( 'NONE',  ( 1.000000000000000000, 0.000000000000000000, 0.000000000000000000 ) ) ;
#4 = CYLINDRICAL_SURFACE ( 'NONE', #39, 5.000000000000000888 ) ;
#5 =( NAMED_UNIT ( * ) PLANE_ANGLE_UNIT ( ) SI_UNIT ( $, .RADIAN. ) );
#6 = CIRCLE ( 'NONE', #277, 5.000000000000000000 ) ;
#7 = DIRECTION ( 'NONE',  ( 0.000000000000000000, 0.000000000000000000, -1.000000000000000000 ) ) ;
#8 = CARTESIAN_POINT ( 'NONE',  ( 1.250000000000000444, 0.000000000000000000, 0.000000000000000000 ) ) ;
#9 = EDGE_CURVE ( 'NONE', #65, #225, #321, .T. ) ;
#10 = CC_DESIGN_APPROVAL ( #29, ( #140 ) ) ;
#11 = PERSON_AND_ORGANIZATION_ROLE ( 'classification_officer' ) ;
#12 = CALENDAR_DATE ( 2020, 22, 12 ) ;
#13 = EDGE_LOOP ( 'NONE', ( #254, #229 ) ) ;
#14 = CC_DESIGN_SECURITY_CLASSIFICATION ( #122, ( #92 ) ) ;
#15 = COORDINATED_UNIVERSAL_TIME_OFFSET ( 8, 0, .AHEAD. ) ;
#16 = ORIENTED_EDGE ( 'NONE', *, *, #70, .F. ) ;
#17 = CC_DESIGN_PERSON_AND_ORGANIZATION_ASSIGNMENT ( #252, #11, ( #122 ) ) ;
#18 = LOCAL_TIME ( 17, 12, 1.000000000000000000, #119 ) ;
#19 = VERTEX_POINT ( 'NONE', #260 ) ;
#20 = EDGE_LOOP ( 'NONE', ( #96, #49 ) ) ;
#21 = CLOSED_SHELL ( 'NONE', ( #35, #255, #314, #199, #310, #333, #124, #100, #48, #95 ) ) ;
#22 = CARTESIAN_POINT ( 'NONE',  ( -1.614212418857619014, 6.123233995736767268E-16, -5.000000000000000888 ) ) ;
#23 =( GEOMETRIC_REPRESENTATION_CONTEXT ( 3 ) GLOBAL_UNCERTAINTY_ASSIGNED_CONTEXT ( ( #325 ) ) GLOBAL_UNIT_ASSIGNED_CONTEXT ( ( #28, #5, #164 ) ) REPRESENTATION_CONTEXT ( 'NONE', 'WORKASPACE' ) );
#24 = EDGE_LOOP ( 'NONE', ( #306, #222, #197, #172 ) ) ;
#25 = CARTESIAN_POINT ( 'NONE',  ( -3.000000000000000000, 0.000000000000000000, 0.000000000000000000 ) ) ;
#26 = ADVANCED_BREP_SHAPE_REPRESENTATION ( 'Q-OZHWP-R2-10-532-M', ( #142, #51 ), #23 ) ;
#27 = DIRECTION ( 'NONE',  ( -1.000000000000000000, -0.000000000000000000, -0.000000000000000000 ) ) ;
#28 =( LENGTH_UNIT ( ) NAMED_UNIT ( * ) SI_UNIT ( .MILLI., .METRE. ) );
#29 = APPROVAL ( #139, 'UNSPECIFIED' ) ;
#30 = DIRECTION ( 'NONE',  ( 0.000000000000000000, 0.000000000000000000, 1.000000000000000000 ) ) ;
#31 = CYLINDRICAL_SURFACE ( 'NONE', #232, 5.000000000000000888 ) ;
#32 = DIRECTION ( 'NONE',  ( 1.000000000000000000, 0.000000000000000000, 0.000000000000000000 ) ) ;
#33 = DIRECTION ( 'NONE',  ( 0.000000000000000000, 0.000000000000000000, 1.000000000000000000 ) ) ;
#34 = DIRECTION ( 'NONE',  ( 0.000000000000000000, 0.000000000000000000, 1.000000000000000000 ) ) ;
#35 = ADVANCED_FACE ( 'NONE', ( #285 ), #307, .T. ) ;
#36 = CIRCLE ( 'NONE', #226, 12.69999999999999929 ) ;
#37 = LINE ( 'NONE', #213, #97 ) ;
#38 = DIRECTION ( 'NONE',  ( -1.000000000000000000, -0.000000000000000000, -0.000000000000000000 ) ) ;
#39 = AXIS2_PLACEMENT_3D ( 'NONE', #212, #63, #317 ) ;
#40 = DIRECTION ( 'NONE',  ( -1.000000000000000000, 0.000000000000000000, -0.000000000000000000 ) ) ;
#41 = PERSON_AND_ORGANIZATION ( #99, #76 ) ;
#42 = EDGE_CURVE ( 'NONE', #93, #149, #311, .T. ) ;
#43 = APPROVAL_ROLE ( '' ) ;
#44 = ORIENTED_EDGE ( 'NONE', *, *, #152, .T. ) ;
#45 = AXIS2_PLACEMENT_3D ( 'NONE', #186, #57, #34 ) ;
#46 = PERSON_AND_ORGANIZATION ( #99, #76 ) ;
#47 = ORIENTED_EDGE ( 'NONE', *, *, #160, .F. ) ;
#48 = ADVANCED_FACE ( 'NONE', ( #131, #258 ), #313, .F. ) ;
#49 = ORIENTED_EDGE ( 'NONE', *, *, #90, .F. ) ;
#50 = CARTESIAN_POINT ( 'NONE',  ( 3.000000000000000000, 12.69999999999999929, 0.000000000000000000 ) ) ;
#51 = AXIS2_PLACEMENT_3D ( 'NONE', #134, #238, #3 ) ;
#52 = DIRECTION ( 'NONE',  ( -1.000000000000000000, -0.000000000000000000, -0.000000000000000000 ) ) ;
#53 = ORIENTED_EDGE ( 'NONE', *, *, #42, .T. ) ;
#54 = CARTESIAN_POINT ( 'NONE',  ( -1.614212418857619014, 0.000000000000000000, 0.000000000000000000 ) ) ;
#55 = CIRCLE ( 'NONE', #185, 12.69999999999999929 ) ;
#56 = DIRECTION ( 'NONE',  ( -1.000000000000000000, -0.000000000000000000, -0.000000000000000000 ) ) ;
#57 = DIRECTION ( 'NONE',  ( -1.000000000000000000, -0.000000000000000000, -0.000000000000000000 ) ) ;
#58 = CARTESIAN_POINT ( 'NONE',  ( -3.000000000000000000, 0.000000000000000000, 5.000000000000000000 ) ) ;
#59 = CARTESIAN_POINT ( 'NONE',  ( -1.250000000000000222, 0.000000000000000000, 5.000000000000000888 ) ) ;
#60 = CC_DESIGN_APPROVAL ( #294, ( #122 ) ) ;
#61 = PLANE ( 'NONE',  #159 ) ;
#62 = VECTOR ( 'NONE', #109, 1000.000000000000000 ) ;
#63 = DIRECTION ( 'NONE',  ( -1.000000000000000000, -0.000000000000000000, -0.000000000000000000 ) ) ;
#64 = PERSON_AND_ORGANIZATION ( #99, #76 ) ;
#65 = VERTEX_POINT ( 'NONE', #126 ) ;
#66 = DATE_AND_TIME ( #304, #18 ) ;
#67 = ORIENTED_EDGE ( 'NONE', *, *, #268, .F. ) ;
#68 = EDGE_LOOP ( 'NONE', ( #204, #150, #276, #47 ) ) ;
#69 = VERTEX_POINT ( 'NONE', #73 ) ;
#70 = EDGE_CURVE ( 'NONE', #309, #149, #240, .T. ) ;
#71 = LOCAL_TIME ( 17, 12, 1.000000000000000000, #174 ) ;
#72 = ORIENTED_EDGE ( 'NONE', *, *, #233, .T. ) ;
#73 = CARTESIAN_POINT ( 'NONE',  ( 1.250000000000000444, 0.000000000000000000, 5.000000000000000000 ) ) ;
#74 = AXIS2_PLACEMENT_3D ( 'NONE', #78, #183, #288 ) ;
#75 = EDGE_LOOP ( 'NONE', ( #179, #125, #44, #147 ) ) ;
#76 = ORGANIZATION ( 'UNSPECIFIED', 'UNSPECIFIED', '' ) ;
#77 = CARTESIAN_POINT ( 'NONE',  ( 3.000000000000000000, 0.000000000000000000, 0.000000000000000000 ) ) ;
#78 = CARTESIAN_POINT ( 'NONE',  ( -1.250000000000000222, 5.000000000000000000, 0.000000000000000000 ) ) ;
#79 = CARTESIAN_POINT ( 'NONE',  ( 1.250000000000000444, 0.000000000000000000, 0.000000000000000000 ) ) ;
#80 = EDGE_CURVE ( 'NONE', #177, #281, #36, .T. ) ;
#81 = APPROVAL_PERSON_ORGANIZATION ( #64, #227, #221 ) ;
#82 = CARTESIAN_POINT ( 'NONE',  ( 3.000000000000000000, 0.000000000000000000, 12.69999999999999929 ) ) ;
#83 = CARTESIAN_POINT ( 'NONE',  ( -3.000000000000000000, 1.555301434917138433E-15, -12.69999999999999929 ) ) ;
#84 = CARTESIAN_POINT ( 'NONE',  ( 1.250000000000000222, 5.000000000000000000, 0.000000000000000000 ) ) ;
#85 = CARTESIAN_POINT ( 'NONE',  ( 1.250000000000000444, 6.123233995736766282E-16, -5.000000000000000000 ) ) ;
#86 = CC_DESIGN_DATE_AND_TIME_ASSIGNMENT ( #323, #148, ( #140 ) ) ;
#87 = DATE_AND_TIME ( #12, #293 ) ;
#88 = ORIENTED_EDGE ( 'NONE', *, *, #111, .T. ) ;
#89 = AXIS2_PLACEMENT_3D ( 'NONE', #50, #203, #102 ) ;
#90 = EDGE_CURVE ( 'NONE', #93, #208, #101, .T. ) ;
#91 = DATE_AND_TIME ( #228, #327 ) ;
#92 = PRODUCT_DEFINITION_FORMATION_WITH_SPECIFIED_SOURCE ( 'ANY', '', #223, .NOT_KNOWN. ) ;
#93 = VERTEX_POINT ( 'NONE', #235 ) ;
#94 = VERTEX_POINT ( 'NONE', #256 ) ;
#95 = ADVANCED_FACE ( 'NONE', ( #236 ), #334, .F. ) ;
#96 = ORIENTED_EDGE ( 'NONE', *, *, #233, .F. ) ;
#97 = VECTOR ( 'NONE', #110, 1000.000000000000000 ) ;
#98 = DIRECTION ( 'NONE',  ( -1.000000000000000000, -0.000000000000000000, -0.000000000000000000 ) ) ;
#99 = PERSON ( 'UNSPECIFIED', 'UNSPECIFIED', 'UNSPECIFIED', ('UNSPECIFIED'), ('UNSPECIFIED'), ('UNSPECIFIED') ) ;
#100 = ADVANCED_FACE ( 'NONE', ( #270 ), #166, .T. ) ;
#101 = CIRCLE ( 'NONE', #146, 5.000000000000000888 ) ;
#102 = DIRECTION ( 'NONE',  ( -0.000000000000000000, 0.000000000000000000, 1.000000000000000000 ) ) ;
#103 = ORIENTED_EDGE ( 'NONE', *, *, #80, .T. ) ;
#104 = DIRECTION ( 'NONE',  ( -1.000000000000000000, -0.000000000000000000, -0.000000000000000000 ) ) ;
#105 = MECHANICAL_CONTEXT ( 'NONE', #191, 'mechanical' ) ;
#106 = DIRECTION ( 'NONE',  ( -1.000000000000000000, -0.000000000000000000, -0.000000000000000000 ) ) ;
#107 = PERSON_AND_ORGANIZATION ( #99, #76 ) ;
#108 = CIRCLE ( 'NONE', #303, 5.000000000000001776 ) ;
#109 = DIRECTION ( 'NONE',  ( -1.000000000000000000, -0.000000000000000000, -0.000000000000000000 ) ) ;
#110 = DIRECTION ( 'NONE',  ( -1.000000000000000000, -0.000000000000000000, -0.000000000000000000 ) ) ;
#111 = EDGE_CURVE ( 'NONE', #69, #200, #265, .T. ) ;
#112 = DIRECTION ( 'NONE',  ( -0.000000000000000000, 0.000000000000000000, 1.000000000000000000 ) ) ;
#113 = APPROVAL_ROLE ( '' ) ;
#114 = DIRECTION ( 'NONE',  ( 0.000000000000000000, 0.000000000000000000, 1.000000000000000000 ) ) ;
#115 = COORDINATED_UNIVERSAL_TIME_OFFSET ( 8, 0, .AHEAD. ) ;
#116 = CIRCLE ( 'NONE', #127, 12.69999999999999929 ) ;
#117 = DATE_TIME_ROLE ( 'classification_date' ) ;
#118 = ORIENTED_EDGE ( 'NONE', *, *, #155, .F. ) ;
#119 = COORDINATED_UNIVERSAL_TIME_OFFSET ( 8, 0, .AHEAD. ) ;
#120 = ORIENTED_EDGE ( 'NONE', *, *, #290, .T. ) ;
#121 = AXIS2_PLACEMENT_3D ( 'NONE', #263, #291, #7 ) ;
#122 = SECURITY_CLASSIFICATION ( '', '', #143 ) ;
#123 = EDGE_LOOP ( 'NONE', ( #259, #67, #249, #88 ) ) ;
#124 = ADVANCED_FACE ( 'NONE', ( #216, #135 ), #244, .F. ) ;
#125 = ORIENTED_EDGE ( 'NONE', *, *, #133, .T. ) ;
#126 = CARTESIAN_POINT ( 'NONE',  ( 3.000000000000000000, 1.555301434917138433E-15, -12.69999999999999929 ) ) ;
#127 = AXIS2_PLACEMENT_3D ( 'NONE', #299, #56, #218 ) ;
#128 = EDGE_LOOP ( 'NONE', ( #282, #195 ) ) ;
#129 = ORIENTED_EDGE ( 'NONE', *, *, #80, .F. ) ;
#130 = PRODUCT_DEFINITION_SHAPE ( 'NONE', 'NONE',  #140 ) ;
#131 = FACE_OUTER_BOUND ( 'NONE', #201, .T. ) ;
#132 = CYLINDRICAL_SURFACE ( 'NONE', #153, 5.000000000000000888 ) ;
#133 = EDGE_CURVE ( 'NONE', #94, #200, #319, .T. ) ;
#134 = CARTESIAN_POINT ( 'NONE',  ( 0.000000000000000000, 0.000000000000000000, 0.000000000000000000 ) ) ;
#135 = FACE_OUTER_BOUND ( 'NONE', #279, .T. ) ;
#136 = EDGE_CURVE ( 'NONE', #225, #177, #295, .T. ) ;
#137 = CARTESIAN_POINT ( 'NONE',  ( -3.000000000000000000, 0.000000000000000000, 0.000000000000000000 ) ) ;
#138 = DIRECTION ( 'NONE',  ( 0.000000000000000000, 0.000000000000000000, 1.000000000000000000 ) ) ;
#139 = APPROVAL_STATUS ( 'not_yet_approved' ) ;
#140 = PRODUCT_DEFINITION ( 'UNKNOWN', '', #92, #271 ) ;
#141 = CARTESIAN_POINT ( 'NONE',  ( -1.250000000000000222, 0.000000000000000000, 0.000000000000000000 ) ) ;
#142 = MANIFOLD_SOLID_BREP ( 'Ðý×', #21 ) ;
#143 = SECURITY_CLASSIFICATION_LEVEL ( 'unclassified' ) ;
#144 = APPLICATION_CONTEXT ( 'configuration controlled 3d designs of mechanical parts and assemblies' ) ;
#145 = APPROVAL_DATE_TIME ( #302, #294 ) ;
#146 = AXIS2_PLACEMENT_3D ( 'NONE', #180, #287, #284 ) ;
#147 = ORIENTED_EDGE ( 'NONE', *, *, #308, .F. ) ;
#148 = DATE_TIME_ROLE ( 'creation_date' ) ;
#149 = VERTEX_POINT ( 'NONE', #239 ) ;
#150 = ORIENTED_EDGE ( 'NONE', *, *, #9, .T. ) ;
#151 = AXIS2_PLACEMENT_3D ( 'NONE', #79, #246, #189 ) ;
#152 = EDGE_CURVE ( 'NONE', #200, #69, #6, .T. ) ;
#153 = AXIS2_PLACEMENT_3D ( 'NONE', #245, #261, #209 ) ;
#154 = DIRECTION ( 'NONE',  ( -1.000000000000000000, -0.000000000000000000, -0.000000000000000000 ) ) ;
#155 = EDGE_CURVE ( 'NONE', #225, #65, #55, .T. ) ;
#156 = FACE_OUTER_BOUND ( 'NONE', #123, .T. ) ;
#157 = DIRECTION ( 'NONE',  ( 0.000000000000000000, 0.000000000000000000, 1.000000000000000000 ) ) ;
#158 = APPLICATION_PROTOCOL_DEFINITION ( 'international standard', 'config_control_design', 1994, #191 ) ;
#159 = AXIS2_PLACEMENT_3D ( 'NONE', #84, #40, #112 ) ;
#160 = EDGE_CURVE ( 'NONE', #281, #177, #116, .T. ) ;
#161 = DIRECTION ( 'NONE',  ( -1.000000000000000000, -0.000000000000000000, -0.000000000000000000 ) ) ;
#162 = DIRECTION ( 'NONE',  ( -1.000000000000000000, -0.000000000000000000, -0.000000000000000000 ) ) ;
#163 = CARTESIAN_POINT ( 'NONE',  ( -1.614212418857619014, 1.555301434917138433E-15, -12.69999999999999929 ) ) ;
#164 =( NAMED_UNIT ( * ) SI_UNIT ( $, .STERADIAN. ) SOLID_ANGLE_UNIT ( ) );
#165 = LOCAL_TIME ( 17, 12, 1.000000000000000000, #15 ) ;
#166 = CYLINDRICAL_SURFACE ( 'NONE', #297, 12.69999999999999929 ) ;
#167 = CC_DESIGN_PERSON_AND_ORGANIZATION_ASSIGNMENT ( #267, #211, ( #223 ) ) ;
#168 = DIRECTION ( 'NONE',  ( -1.000000000000000000, -0.000000000000000000, -0.000000000000000000 ) ) ;
#169 = APPROVAL_DATE_TIME ( #87, #29 ) ;
#170 = DIRECTION ( 'NONE',  ( -1.000000000000000000, -0.000000000000000000, -0.000000000000000000 ) ) ;
#171 = PERSON_AND_ORGANIZATION_ROLE ( 'creator' ) ;
#172 = ORIENTED_EDGE ( 'NONE', *, *, #70, .T. ) ;
#173 = CC_DESIGN_PERSON_AND_ORGANIZATION_ASSIGNMENT ( #41, #278, ( #92 ) ) ;
#174 = COORDINATED_UNIVERSAL_TIME_OFFSET ( 8, 0, .AHEAD. ) ;
#175 = PERSON_AND_ORGANIZATION ( #99, #76 ) ;
#176 = ORIENTED_EDGE ( 'NONE', *, *, #136, .F. ) ;
#177 = VERTEX_POINT ( 'NONE', #210 ) ;
#178 = AXIS2_PLACEMENT_3D ( 'NONE', #77, #27, #181 ) ;
#179 = ORIENTED_EDGE ( 'NONE', *, *, #305, .F. ) ;
#180 = CARTESIAN_POINT ( 'NONE',  ( -1.250000000000000222, 0.000000000000000000, 0.000000000000000000 ) ) ;
#181 = DIRECTION ( 'NONE',  ( 0.000000000000000000, 0.000000000000000000, 1.000000000000000000 ) ) ;
#182 = AXIS2_PLACEMENT_3D ( 'NONE', #141, #32, #190 ) ;
#183 = DIRECTION ( 'NONE',  ( 1.000000000000000000, 0.000000000000000000, 0.000000000000000000 ) ) ;
#184 = CARTESIAN_POINT ( 'NONE',  ( -1.614212418857619014, 0.000000000000000000, 12.69999999999999929 ) ) ;
#185 = AXIS2_PLACEMENT_3D ( 'NONE', #318, #161, #298 ) ;
#186 = CARTESIAN_POINT ( 'NONE',  ( 3.000000000000000000, 0.000000000000000000, 0.000000000000000000 ) ) ;
#187 = DIRECTION ( 'NONE',  ( 0.000000000000000000, 0.000000000000000000, 1.000000000000000000 ) ) ;
#188 = DIRECTION ( 'NONE',  ( -1.000000000000000000, -0.000000000000000000, -0.000000000000000000 ) ) ;
#189 = DIRECTION ( 'NONE',  ( 0.000000000000000000, 0.000000000000000000, 1.000000000000000000 ) ) ;
#190 = DIRECTION ( 'NONE',  ( 0.000000000000000000, 0.000000000000000000, -1.000000000000000000 ) ) ;
#191 = APPLICATION_CONTEXT ( 'configuration controlled 3d designs of mechanical parts and assemblies' ) ;
#192 = PERSON_AND_ORGANIZATION_ROLE ( 'creator' ) ;
#193 = EDGE_CURVE ( 'NONE', #65, #281, #322, .T. ) ;
#194 = CALENDAR_DATE ( 2020, 22, 12 ) ;
#195 = ORIENTED_EDGE ( 'NONE', *, *, #305, .T. ) ;
#196 = SHAPE_DEFINITION_REPRESENTATION ( #130, #26 ) ;
#197 = ORIENTED_EDGE ( 'NONE', *, *, #224, .T. ) ;
#198 = PERSON_AND_ORGANIZATION ( #99, #76 ) ;
#199 = ADVANCED_FACE ( 'NONE', ( #262 ), #61, .F. ) ;
#200 = VERTEX_POINT ( 'NONE', #85 ) ;
#201 = EDGE_LOOP ( 'NONE', ( #118, #280 ) ) ;
#202 = ORIENTED_EDGE ( 'NONE', *, *, #290, .F. ) ;
#203 = DIRECTION ( 'NONE',  ( -1.000000000000000000, 0.000000000000000000, -0.000000000000000000 ) ) ;
#204 = ORIENTED_EDGE ( 'NONE', *, *, #193, .F. ) ;
#205 = VECTOR ( 'NONE', #106, 1000.000000000000000 ) ;
#206 = DIRECTION ( 'NONE',  ( -1.000000000000000000, -0.000000000000000000, -0.000000000000000000 ) ) ;
#207 = APPROVAL_PERSON_ORGANIZATION ( #175, #294, #43 ) ;
#208 = VERTEX_POINT ( 'NONE', #59 ) ;
#209 = DIRECTION ( 'NONE',  ( 0.000000000000000000, 0.000000000000000000, 1.000000000000000000 ) ) ;
#210 = CARTESIAN_POINT ( 'NONE',  ( -3.000000000000000000, 0.000000000000000000, 12.69999999999999929 ) ) ;
#211 = PERSON_AND_ORGANIZATION_ROLE ( 'design_owner' ) ;
#212 = CARTESIAN_POINT ( 'NONE',  ( -1.614212418857619014, 0.000000000000000000, 0.000000000000000000 ) ) ;
#213 = CARTESIAN_POINT ( 'NONE',  ( -1.614212418857619014, 0.000000000000000000, 5.000000000000000888 ) ) ;
#214 = CIRCLE ( 'NONE', #182, 5.000000000000000888 ) ;
#215 = FACE_OUTER_BOUND ( 'NONE', #301, .T. ) ;
#216 = FACE_BOUND ( 'NONE', #329, .T. ) ;
#217 = COORDINATED_UNIVERSAL_TIME_OFFSET ( 8, 0, .AHEAD. ) ;
#218 = DIRECTION ( 'NONE',  ( 0.000000000000000000, 0.000000000000000000, 1.000000000000000000 ) ) ;
#219 = APPROVAL_PERSON_ORGANIZATION ( #107, #29, #113 ) ;
#220 = ORIENTED_EDGE ( 'NONE', *, *, #160, .T. ) ;
#221 = APPROVAL_ROLE ( '' ) ;
#222 = ORIENTED_EDGE ( 'NONE', *, *, #90, .T. ) ;
#223 = PRODUCT ( 'Q-OZHWP-R2-10-532-M', 'Q-OZHWP-R2-10-532-M', '', ( #105 ) ) ;
#224 = EDGE_CURVE ( 'NONE', #208, #309, #2, .T. ) ;
#225 = VERTEX_POINT ( 'NONE', #82 ) ;
#226 = AXIS2_PLACEMENT_3D ( 'NONE', #25, #98, #231 ) ;
#227 = APPROVAL ( #272, 'UNSPECIFIED' ) ;
#228 = CALENDAR_DATE ( 2020, 22, 12 ) ;
#229 = ORIENTED_EDGE ( 'NONE', *, *, #152, .F. ) ;
#230 = AXIS2_PLACEMENT_3D ( 'NONE', #331, #206, #332 ) ;
#231 = DIRECTION ( 'NONE',  ( 0.000000000000000000, 0.000000000000000000, 1.000000000000000000 ) ) ;
#232 = AXIS2_PLACEMENT_3D ( 'NONE', #292, #188, #33 ) ;
#233 = EDGE_CURVE ( 'NONE', #208, #93, #214, .T. ) ;
#234 = CARTESIAN_POINT ( 'NONE',  ( -1.614212418857619014, 0.000000000000000000, 0.000000000000000000 ) ) ;
#235 = CARTESIAN_POINT ( 'NONE',  ( -1.250000000000000222, 6.123233995736767268E-16, -5.000000000000000888 ) ) ;
#236 = FACE_OUTER_BOUND ( 'NONE', #20, .T. ) ;
#237 = DIRECTION ( 'NONE',  ( -1.000000000000000000, -0.000000000000000000, -0.000000000000000000 ) ) ;
#238 = DIRECTION ( 'NONE',  ( 0.000000000000000000, 0.000000000000000000, 1.000000000000000000 ) ) ;
#239 = CARTESIAN_POINT ( 'NONE',  ( -3.000000000000000000, 6.123233995736766282E-16, -5.000000000000000000 ) ) ;
#240 = CIRCLE ( 'NONE', #230, 5.000000000000000000 ) ;
#241 = DIRECTION ( 'NONE',  ( -1.000000000000000000, -0.000000000000000000, -0.000000000000000000 ) ) ;
#242 = DIRECTION ( 'NONE',  ( 0.000000000000000000, 0.000000000000000000, 1.000000000000000000 ) ) ;
#243 = VECTOR ( 'NONE', #168, 1000.000000000000000 ) ;
#244 = PLANE ( 'NONE',  #121 ) ;
#245 = CARTESIAN_POINT ( 'NONE',  ( -1.614212418857619014, 0.000000000000000000, 0.000000000000000000 ) ) ;
#246 = DIRECTION ( 'NONE',  ( -1.000000000000000000, -0.000000000000000000, -0.000000000000000000 ) ) ;
#247 = AXIS2_PLACEMENT_3D ( 'NONE', #234, #52, #157 ) ;
#248 = AXIS2_PLACEMENT_3D ( 'NONE', #137, #241, #187 ) ;
#249 = ORIENTED_EDGE ( 'NONE', *, *, #308, .T. ) ;
#250 = ORIENTED_EDGE ( 'NONE', *, *, #155, .T. ) ;
#251 = VECTOR ( 'NONE', #154, 1000.000000000000000 ) ;
#252 = PERSON_AND_ORGANIZATION ( #99, #76 ) ;
#253 = EDGE_LOOP ( 'NONE', ( #250, #326, #129, #176 ) ) ;
#254 = ORIENTED_EDGE ( 'NONE', *, *, #111, .F. ) ;
#255 = ADVANCED_FACE ( 'NONE', ( #215 ), #4, .F. ) ;
#256 = CARTESIAN_POINT ( 'NONE',  ( 3.000000000000000000, 6.123233995736768255E-16, -5.000000000000001776 ) ) ;
#257 = CIRCLE ( 'NONE', #248, 5.000000000000000000 ) ;
#258 = FACE_BOUND ( 'NONE', #128, .T. ) ;
#259 = ORIENTED_EDGE ( 'NONE', *, *, #133, .F. ) ;
#260 = CARTESIAN_POINT ( 'NONE',  ( 3.000000000000000000, 0.000000000000000000, 5.000000000000001776 ) ) ;
#261 = DIRECTION ( 'NONE',  ( -1.000000000000000000, -0.000000000000000000, -0.000000000000000000 ) ) ;
#262 = FACE_OUTER_BOUND ( 'NONE', #13, .T. ) ;
#263 = CARTESIAN_POINT ( 'NONE',  ( -3.000000000000000000, 5.000000000000000000, 0.000000000000000000 ) ) ;
#264 = CC_DESIGN_DATE_AND_TIME_ASSIGNMENT ( #66, #117, ( #122 ) ) ;
#265 = CIRCLE ( 'NONE', #151, 5.000000000000000000 ) ;
#266 = CARTESIAN_POINT ( 'NONE',  ( 3.000000000000000000, 0.000000000000000000, 0.000000000000000000 ) ) ;
#267 = PERSON_AND_ORGANIZATION ( #99, #76 ) ;
#268 = EDGE_CURVE ( 'NONE', #19, #94, #286, .T. ) ;
#269 = CC_DESIGN_APPROVAL ( #227, ( #92 ) ) ;
#270 = FACE_OUTER_BOUND ( 'NONE', #68, .T. ) ;
#271 = DESIGN_CONTEXT ( 'detailed design', #144, 'design' ) ;
#272 = APPROVAL_STATUS ( 'not_yet_approved' ) ;
#273 = PRODUCT_RELATED_PRODUCT_CATEGORY ( 'detail', '', ( #223 ) ) ;
#274 = APPROVAL_STATUS ( 'not_yet_approved' ) ;
#275 = APPROVAL_DATE_TIME ( #91, #227 ) ;
#276 = ORIENTED_EDGE ( 'NONE', *, *, #136, .T. ) ;
#277 = AXIS2_PLACEMENT_3D ( 'NONE', #8, #170, #114 ) ;
#278 = PERSON_AND_ORGANIZATION_ROLE ( 'design_supplier' ) ;
#279 = EDGE_LOOP ( 'NONE', ( #103, #220 ) ) ;
#280 = ORIENTED_EDGE ( 'NONE', *, *, #9, .F. ) ;
#281 = VERTEX_POINT ( 'NONE', #83 ) ;
#282 = ORIENTED_EDGE ( 'NONE', *, *, #268, .T. ) ;
#283 = CC_DESIGN_PERSON_AND_ORGANIZATION_ASSIGNMENT ( #46, #192, ( #140 ) ) ;
#284 = DIRECTION ( 'NONE',  ( 0.000000000000000000, 0.000000000000000000, -1.000000000000000000 ) ) ;
#285 = FACE_OUTER_BOUND ( 'NONE', #253, .T. ) ;
#286 = CIRCLE ( 'NONE', #45, 5.000000000000001776 ) ;
#287 = DIRECTION ( 'NONE',  ( 1.000000000000000000, 0.000000000000000000, 0.000000000000000000 ) ) ;
#288 = DIRECTION ( 'NONE',  ( 0.000000000000000000, 0.000000000000000000, -1.000000000000000000 ) ) ;
#289 = FACE_OUTER_BOUND ( 'NONE', #75, .T. ) ;
#290 = EDGE_CURVE ( 'NONE', #149, #309, #257, .T. ) ;
#291 = DIRECTION ( 'NONE',  ( 1.000000000000000000, 0.000000000000000000, 0.000000000000000000 ) ) ;
#292 = CARTESIAN_POINT ( 'NONE',  ( -1.614212418857619014, 0.000000000000000000, 0.000000000000000000 ) ) ;
#293 = LOCAL_TIME ( 17, 12, 1.000000000000000000, #217 ) ;
#294 = APPROVAL ( #274, 'UNSPECIFIED' ) ;
#295 = LINE ( 'NONE', #184, #330 ) ;
#296 = CARTESIAN_POINT ( 'NONE',  ( -1.614212418857619014, 0.000000000000000000, 0.000000000000000000 ) ) ;
#297 = AXIS2_PLACEMENT_3D ( 'NONE', #296, #237, #30 ) ;
#298 = DIRECTION ( 'NONE',  ( 0.000000000000000000, 0.000000000000000000, 1.000000000000000000 ) ) ;
#299 = CARTESIAN_POINT ( 'NONE',  ( -3.000000000000000000, 0.000000000000000000, 0.000000000000000000 ) ) ;
#300 = CALENDAR_DATE ( 2020, 22, 12 ) ;
#301 = EDGE_LOOP ( 'NONE', ( #72, #53, #120, #324 ) ) ;
#302 = DATE_AND_TIME ( #194, #165 ) ;
#303 = AXIS2_PLACEMENT_3D ( 'NONE', #266, #38, #138 ) ;
#304 = CALENDAR_DATE ( 2020, 22, 12 ) ;
#305 = EDGE_CURVE ( 'NONE', #94, #19, #108, .T. ) ;
#306 = ORIENTED_EDGE ( 'NONE', *, *, #42, .F. ) ;
#307 = CYLINDRICAL_SURFACE ( 'NONE', #247, 12.69999999999999929 ) ;
#308 = EDGE_CURVE ( 'NONE', #19, #69, #37, .T. ) ;
#309 = VERTEX_POINT ( 'NONE', #58 ) ;
#310 = ADVANCED_FACE ( 'NONE', ( #156 ), #31, .F. ) ;
#311 = LINE ( 'NONE', #22, #251 ) ;
#312 = AXIS2_PLACEMENT_3D ( 'NONE', #54, #162, #242 ) ;
#313 = PLANE ( 'NONE',  #89 ) ;
#314 = ADVANCED_FACE ( 'NONE', ( #289 ), #320, .F. ) ;
#315 = CARTESIAN_POINT ( 'NONE',  ( -1.614212418857619014, 0.000000000000000000, 5.000000000000000888 ) ) ;
#316 = APPLICATION_PROTOCOL_DEFINITION ( 'international standard', 'config_control_design', 1994, #144 ) ;
#317 = DIRECTION ( 'NONE',  ( 0.000000000000000000, 0.000000000000000000, 1.000000000000000000 ) ) ;
#318 = CARTESIAN_POINT ( 'NONE',  ( 3.000000000000000000, 0.000000000000000000, 0.000000000000000000 ) ) ;
#319 = LINE ( 'NONE', #1, #205 ) ;
#320 = CYLINDRICAL_SURFACE ( 'NONE', #312, 5.000000000000000888 ) ;
#321 = CIRCLE ( 'NONE', #178, 12.69999999999999929 ) ;
#322 = LINE ( 'NONE', #163, #62 ) ;
#323 = DATE_AND_TIME ( #300, #71 ) ;
#324 = ORIENTED_EDGE ( 'NONE', *, *, #224, .F. ) ;
#325 = UNCERTAINTY_MEASURE_WITH_UNIT (LENGTH_MEASURE( 1.000000000000000082E-05 ), #28, 'distance_accuracy_value', 'NONE');
#326 = ORIENTED_EDGE ( 'NONE', *, *, #193, .T. ) ;
#327 = LOCAL_TIME ( 17, 12, 1.000000000000000000, #115 ) ;
#328 = CC_DESIGN_PERSON_AND_ORGANIZATION_ASSIGNMENT ( #198, #171, ( #92 ) ) ;
#329 = EDGE_LOOP ( 'NONE', ( #16, #202 ) ) ;
#330 = VECTOR ( 'NONE', #104, 1000.000000000000000 ) ;
#331 = CARTESIAN_POINT ( 'NONE',  ( -3.000000000000000000, 0.000000000000000000, 0.000000000000000000 ) ) ;
#332 = DIRECTION ( 'NONE',  ( 0.000000000000000000, 0.000000000000000000, 1.000000000000000000 ) ) ;
#333 = ADVANCED_FACE ( 'NONE', ( #335 ), #132, .F. ) ;
#334 = PLANE ( 'NONE',  #74 ) ;
#335 = FACE_OUTER_BOUND ( 'NONE', #24, .T. ) ;
ENDSEC;
END-ISO-10303-21;
